Pal Pal Har Pal - Lage Raho Munna Bhai

G|----2--0-2-0-0-2-0---
D|--0----------------------
A|-3-----------------------
Pal pal pal palll har pal har pal..

G|-2-0--------0------0-------0-------
D|-------3-0----3-3-----3-3----3----
Kaise katega pal har pal

G|----2--0-2-0-0-2-0---
D|--0----------------------
A|-3-----------------------
Pal pal pal palll har pal har pal..

G|-2-0--------0------0-------0-------
D|-------3-0----3-3-----3-3----3----
Kaise katega pal har pal har pal..

B|------------1--------1------
G|----0-2-3-3---3---3----3---
D|-3------------------------------
Dil dil dil dill mein machi hai machi

B|-1------------------------------
G|---3-2-0-3-2-2-3-2-2-3-2---
Machi hai hulchul hulchul hulchul

G|-3--2-0----2--0--0-2-0-0-2-0--
D|---------3-------------------------
Kaise katega pal har pal har pal

G|--2--0------0-------0-----------
D|--------3-0----3-3----3--0-----
A|-----------------------------3-
Kaise katega pal har pal har pal

G|----2--0-2-0-0-2-0---
D|--0----------------------
A|-3-----------------------
Pal pal pal palll har pal har pal..

G|-2-0--------0------0-------0-------
D|-------3-0----3-3-----3-3----3----
Kaise katega pal har pal har pal..

G|----2--0-2-0-0-2-0---
D|--0----------------------
A|-3-----------------------
han han han han ha ha ha

G|-2-0--------0------0-------0-------
D|-------3-0----3-3-----3-3----3----
la la la la la la laaa laaa

G|----0-2-0---0---2-3--2---
D|-3---------------------------
O hum saafar Lagta hai daaar

G|----0-2-0------------0------
D|-3----------3-2--0-0---2-3--
Raat katena kabhi ho seher

G|----0-2-0---0---2-3--2---
D|-3---------------------------
Is pal mein simete umar

G|----0-2-0------------0------
D|-3----------3-2--0-0---2-3--
Raat katena kabhi ho sehar

[REST ARE SAME]

my blog: http://topguitartab.blogspot.com/
my page: http://www.facebook.com/guitarist.hatim

Tu jo hai saaath hai
To dagar lage ke jaise khoobsurat ghar
Tu jo hai saaath mein
To dagar lage ke jaise khoobsurat ghar

Tu jo hai saaath
To yeh ambar lage ke jaise saya ho sar per
Tere Kandhe per rakh kar sar
Yuhi kat jaye sari umar


Pal pal pal palll har pal har pal..
Kaise katega pal har pal har pal..
han han han han ha ha ha
la la la la la la laaalalaaa ummm ummmm ummmm

Kal kya ho kisko khabar
Lagta hai daar
Lagta hai daar
Is pal mein simete umar
Raat katena kabhi ho sehar

Accha Bataoo...

Dil ki itne saari baatein
Kaise likhoge itne chote khat per
Dil ki itne saari baatein
Kaise likhoge itne chote khat per

Dil per tuta hai kaise kahar
Tumko paakar khone ka hai daar
Pyar ka yeh dhai aakhar
Kaise likhoge itne chote khat per

Pal pal pal palll har pal har pal..
Kaise katega pal har pal
Pal pal pal palll har pal har pal..
Kaise katega pal har pal har pal..

Dil dil dil dill mein machi hai machi
Machi hai hulchul hulchul hulchul
Kaise katega pal har pal har pal
Kaise katega pal har pal har pal

haan haaan han hanla lala
han haan han umm umm umm
laa laa laaalaaa 

my blog: http://topguitartab.blogspot.com/
my page: http://www.facebook.com/guitarist.hatim
comments powered by Disqus