Dheere Dheere se meri zindagi mein ana - Aashiqui

Title: Dheere Dheere se meri zindagi mein ana.
Movie: Aashiqui.



Intro (Time:- 00:13) 

E |---6/7---6/7-6-----|-------------|
B |----h-----h----9---|---7-7-7/9---|
G |-------------------|--------h----|
D |-------------------|-------------|
A |-------------------|-------------|
E |-------------------|-------------|
                                                                              

E |---6/7-9-9/11-11---|---6/7-6-----|---------------|
B |----h-----s--------|----h----9---|---5/7-7-7\5---|
G |-------------------|-------------|----s-----s----|
D |-------------------|-------------|---------------|
A |-------------------|-------------|---------------|
E |-------------------|-------------|---------------|
                                                                              

E |---6/7---6/7-6-----|-------------|
B |----h-----h----9---|---7-7-7/9---|
G |-------------------|--------h----|
D |-------------------|-------------|
A |-------------------|-------------|
E |-------------------|-------------|
                                                                              
h=hammer
p=pull
s=slide









Fill.1 (Time:- 2:04 & 3:49)

E |------------6/7-6----------------|
B |---7/9-9~----s----9--7/9-9p7\4---|
G |----h-----------------h-----s----|
D |---------------------------------|
A |---------------------------------|
E |---------------------------------|

Fill.2 (Time:- 1:15)
(Not playd on guitar in the song)

E |---4-7~---7-4-7-4---6------|-----6~---9-6---4-6-4---|
B |------------------7---7~---|---7----------7---------|
G |---------------------------|------------------------|
D |---------------------------|------------------------|
A |---------------------------|------------------------|
E |---------------------------|------------------------|

h=hammer
s=slide
~=let ring









Solo (Time:- 3:17)

E |---7-6----------|---7-6------------|
B |-------9/11-9---|-------9-9/11-9---|
G |--------s-------|----------s-------|
D |----------------|------------------|
A |----------------|------------------|
E |----------------|------------------|
                                                                              

E |------------------------------------11-9---------|--------------9-11-9-----------|
B |---11-9---------------------9-11-12------12-11---|--------11-12--------12-11p9---|
G |--------11-11-(11)-(11)--11----------------------|---11--------------------------|
D |-------------------------------------------------|-------------------------------|
A |-------------------------------------------------|-------------------------------|
E |-------------------------------------------------|-------------------------------|

p=pull
s=slide
()=notes played softly

Listn 2 the song 2 get the propr timings 4 da intro, fills, solo... manipulate the hammer-ons, pull-offs,slides acc 2 ur need.












Dheere dheere se dil ko churana.
G#m                             F#
Tumse pyar hame hai kitna jaane jaana.
G#m

Tumse mil kar tum ko hai batana.... x 2 times.

** Play Fill.2

G#m                              F#
Jabse tujhe dekha dil ko kahin aaram nahin.
                                G#m
Mere honton pe ek tere siwa koi naam nahin.

** Play Fill.1

G#m                           F# 
Aapna bhi halat tumhare jaisa hai saajan.
                                   G#m
Bas yaad tujhe karte hain aur koyi kam nahin.
G#m                       F# 
Ban gaya hun main tera deewana.
G#m
Dheere dheere se dil ko churana.
G#m                                     F#
Oohh dheere dheere se meri zindagi mein aanaaa.
G#m
Dheere Dheere se dilko churana. 

** Play Solo

G#m                           F# 
Tune bhi aaksar mujhko jagaya raaton mein.
                                G#m
Aur neend churayi meethi meethi baaton mein.

** Play Fill.1

G#m                           F#  
Tune bhi beshaak mujhko kitna tarpaya.
                            G#m    
Phir bhi teri har ek ada pe yaad aya.
G#m                     F#
Aaja Aaja aab kaisa sharmaanaa. ;)
G#m
Dheere dheere se dil ko churana.

G#m                                     F#
Oohh dheere dheere se meri zindagi mein aanaaa.
G#m
Dheere Dheere se dilko churana. 
G#m                             F#
Tumse pyar hame hai kitna jaane jaana.
G#m
Tumse mil kar tum ko hai batana.... x 2 times.
G#m                                     F#
Oohh dheere dheere se meri zindagi mein aanaaa.
G#m
Dheere Dheere se dilko churana. 


comments powered by Disqus